Home » » Not In Nottingham Chords | Site-ul care oferă cele mai complete acorduri muzicale

» Not In Nottingham Chords | Site-ul care oferă cele mai complete acorduri muzicale

by Sorin Crina

Căutați un subiect » Not In Nottingham Chords nu? Dacă da, îl puteți urmări chiar aici.

» Not In Nottingham Chords | Puteți găsi multe alte acorduri de melodii aici

-----------------------------------------------------------------------------
                    Not In Nottingham - Mumford and Sons
-----------------------------------------------------------------------------
Tabbed by: Macheeoo
Email: [email protected]

Tuning: Standard

    A               A               D                  A             E
e|---------------------------------------------------------------------------|
B|---------------------------------------------------------------------------|
G|--------------------------------------2-----2----2-------------------------|
D|-----2-----2---------2-----2------0------0-----4------2-----2--------------|
A|--0-----0-----4---0-----0-----4--------------------0-----0-----4----2---2--|
E|------------------------------------------------------------------0---0---4|          x2

A
Every town,
A
Has it's up and
D
Downs, sometimes the
A
Ups, outnumber the
E
Downs, but not in Notting-
A    A7                  
Ham, well i'm inclined to
D                          A      E
Believe, if we weren't so down
              A
we'd up and leave, we'd up and
E
Fly if we had wings for flyin'
D
Can't you see these tears we're crying
E             E7            A     E
Is there some happiness for me
                    A    A7
Well not in Nottingham

'Whistle part'

D   A   E   A

A7                  
Well i'm inclined to
D                          A       E
Believe, if we weren't so down, oh darlin'
             A
We'd up and leave, we'd up and
E
Fly if we had wings for flyin'
D
Can't you see these tears we're crying
E                 E7            A     E
And is there some happiness for me
                     A --
Well, not in Nottingham

Puteți găsi mai multe informații utile aici: https://romani. xemloibaihat.com/chord

» Not In Nottingham Chords Și căutări legate de acest subiect

#Nottingham #Chords

» Not In Nottingham Chords

>> Vedeți mai multe informații utile furnizate de noi aici: https://romani.xemloibaihat .com .

Examinați din nou informațiile legate de subiectul » Not In Nottingham Chords

-----------------------------------------------------------------------------
                    Not In Nottingham - Mumford and Sons
-----------------------------------------------------------------------------
Tabbed by: Macheeoo
Email: [email protected]

Tuning: Standard

    A               A               D                  A             E
e|---------------------------------------------------------------------------|
B|---------------------------------------------------------------------------|
G|--------------------------------------2-----2----2-------------------------|
D|-----2-----2---------2-----2------0------0-----4------2-----2--------------|
A|--0-----0-----4---0-----0-----4--------------------0-----0-----4----2---2--|
E|------------------------------------------------------------------0---0---4|          x2

A
Every town,
A
Has it's up and
D
Downs, sometimes the
A
Ups, outnumber the
E
Downs, but not in Notting-
A    A7                  
Ham, well i'm inclined to
D                          A      E
Believe, if we weren't so down
              A
we'd up and leave, we'd up and
E
Fly if we had wings for flyin'
D
Can't you see these tears we're crying
E             E7            A     E
Is there some happiness for me
                    A    A7
Well not in Nottingham

'Whistle part'

D   A   E   A

A7                  
Well i'm inclined to
D                          A       E
Believe, if we weren't so down, oh darlin'
             A
We'd up and leave, we'd up and
E
Fly if we had wings for flyin'
D
Can't you see these tears we're crying
E                 E7            A     E
And is there some happiness for me
                     A --
Well, not in Nottingham

Vă mulțumesc foarte mult pentru interesul acordat articolului nostru. Sperăm că aceste informații vă vor fi de mare valoare.

You may also like

Leave a Comment